new transposer      circle of 5ths    wap



Solo intro Lick

by Veqq
 


|--3--|
Q Q E E q q q E E E Q Q Q E E E E
|-----17--15-17-18--|---------17-15----15--|-----17--15-17-18-20-|
|-15----------------|-18------------18-----|-15------------------|
|-------------------|-----17---------------|---------------------|
|-------------------|----------------------|---------------------|
|-------------------|----------------------|---------------------|
|-------------------|----------------------|---------------------|


E E S S S S S S S S S S S S S S S S S S E +H
|-20-20--18-17-18-17-15----------15----------|-------------------------------|
|-----------------------18-17-18----17-18-17-|-15-------15-------------------|
|--------------------------------------------|----17-16-----17-16-14-(14)----|
|--------------------------------------------|-------------------------------|
|--------------------------------------------|-------------------------------|
|--------------------------------------------|-------------------------------|




Duration Legend
---------------
H - half; Q - quarter; E - 8th; S - 16th


Comments:

Guest access is read-only. To write comment, please login!



Copyright © 2004-2009 All-Guitar-Chords.com. All rights reserved.