new transposer      circle of 5ths    wap



short and easy guitar solo

by johnnysixstring
 



e---------------------------------12-12----12---------
b---------13-15-15p13-------13h15-------15------------
g--9/12-14------------14-14-------------------14------
d-----------------------------------------------------
a-----------------------------------------------------
e-----------------------------------------------------

C - A - E - G
bass guitar
g--5--5--5----2--2--2-----------------------------------
d-------------------------2--2--2-----5--5--5-----------
a-----------3----------0--------------------------------
e----------------------------------0-----------3--------




Comments:

Guest access is read-only. To write comment, please login!



Copyright © 2004-2009 All-Guitar-Chords.com. All rights reserved.