new transposer      circle of 5ths    wap



guitar solo in the key of A#

by johnnysixstring

Votes 1 | Rating 5




e--------------------------------------
b--------------------------------------
g--------------------------------------
d--------------------------------------
a------6/8-------8-4h6p4---------8-----
e--0-0-4/6-0-0-0-6-------6-6p5p4-6-----

e----------------------6-6-----6-6---------------------------------------------
b----------------------6-6-----6-6------14--------14--14--------14-------------
g------6-------6---6h8-----6h8-----13h15--15-13h15--15--15p13h15--15p13h15-----
d--6h8---8-6h8---8-------------------------------------------------------------
a------------------------------------------------------------------------------
e------------------------------------------------------------------------------

e------------------13-18b-18-18-18-18b-----------
b----------------14------------------------------
g----------15*-15--------------------------------
d--13h14h15--------------------------------------
a------------------------------------------------
e------------------------------------------------







Comments:

Guest access is read-only. To write comment, please login!



Copyright © 2004-2009 All-Guitar-Chords.com. All rights reserved.