new transposer      circle of 5ths    wap



string skip/tap

by metalman167
 


T T
------------8h12-13p12p8-----------------------
--------------------------12p9p10--------------
-------9h10------------------------------------
-----------------------------------------------
--8h12-----------------------------------------
----------------------------------------------- x4



T T
------------8h12-17p12p8-----------------------
--------------------------17p9p10--------------
-------9h10------------------------------------
-----------------------------------------------
--8h12-----------------------------------------
----------------------------------------------- x4



T T
------------8h12-15p12p8-----------------------
--------------------------14p9p10--------------
-------9h10------------------------------------
-----------------------------------------------
--8h12-----------------------------------------
----------------------------------------------- x4



T T
------------8h12-13(15)p12p8-------------------
------------------------------12p9p10----------
-------9h10------------------------------------
-----------------------------------------------
--8h12-----------------------------------------
-----------------------------------------------






-----------------------------------------------
-----------------------------------------------
-----------------------------------------------
-8---3---7---5---------------------------------
-8---3---7---5---------------------------------
-8---3---7---5---------------------------------



i put the 15 in parenthesi because you tap 13 then 15 then 13 then 15 on alternating times and the chords at the end are the rythym chords to the whole thing, just strum is all i can say really haha

this is a fairly simple lick actually but people get real excited when they see it
it looks alot harder then it really is
im using in my band so no funny business haha..
but seriously.


i hope you enjoy!






Comments:

Guest access is read-only. To write comment, please login!



Copyright © 2004-2009 All-Guitar-Chords.com. All rights reserved.