new transposer      circle of 5ths    wap



melodic metal!

by johnnysixstring

Votes 1 | Rating 5


drop A tuning
4/4 timing



----------------------------------------------------------
----------------------------------------------------------
-----------------------------------------------------(x4)-
---5---7---8---7-----5-5----5-5-----7-7-----7-7-----------
---------------------3-3----3-3-----5-5-----5-5-----------
-0---0---0---0---0-0-----0-0----0-0-----0-0---------------

-----------------------------------------------------------------------
-----------------------------------------------------------------------
------------------------------------------------------------------(x2)-
-----7p0-----5p0-----3p0-----5p0-----5-5----5-5-----7-7----7-7---------
-------------------------------------3-3----3-3-----5-5----5-5---------
-0-0-----0-0-----0-0-----0-0-----0-0-----0-0----0-0-----0-0------------






Comments:

01
05.04.2010
  Mistaluke

o.o kewl

Guest access is read-only. To write comment, please login!



Copyright © 2004-2009 All-Guitar-Chords.com. All rights reserved.