new transposer      circle of 5ths    wap



drop d rock groove

by johnnysixstring
 



drop d tuning
4/4

rhythm an lead
e-----------------------------------
b-----------------------------------
g-----------------------------------
d----------------------------7------
a-----7h9-----7h9-----7h9----5-9----
e-0-0-7h9-0-0-7h9-0-0-7h9-0-0--9----

e----------------------------------
b----------------------------------
g----------------------------------
d----------------------------7-----
a-----7h9-----7h9----7h9-----5-7---
e-0-0-7h9-0-0-7h9-0-07h9-0-0---7---

e-------------------
b-------------------
g-------------------
d-------------------
a-----5-5-----7-7---
e-0-0-5-5-0-0-7-7---

lead
e------------------------------------
b------------------------------------
g------------------------------------
d-------9----12-9b--------9b---------
a-----9----------------12----9-9-9-9-
e-9-9-----0-0------0-0-------9-9-9-9-

rhythm
e------------------------------------
b------------------------------------
g------------------------------------
d-9-9-9-9--9-9-9-9--9-9-9-9--9-9-9-9-
a-9-9-9-9--9-9-9-9--9-9-9-9--9-9-9-9-
e-9-9-9-9--9-9-9-9--9-9-9-9--9-9-9-9-


rhythm and lead
e-----------------------
b-----------------------
g-----------------------
d-----------------------
a-----5-5-----7-7-------
e-0-0-5-5-0-0-7-7-------

lead guitar 4/4
e-------------------------------------------------------------------------
b-------------------------------------------------------------------------
g-----7-------7-----------------------------------------------------------
d-7-9---9-7-9---9-9-9-9-9-9-9-9-9-7h9p7h9p7h9p7h9p7h9p7h9p7h9p7h9---------
a-----------------------------------------------------------------7-9-7---
e-----------------------------------------------------------------------9-
1 2 3 4 1 2 3 4 1 2 3 4 1 2 3 4 1 2 3 4 1 2 3 4 1 2 3 4 1 2 3 4 1 2 3 4

e--------------------------
b--------------------------
g--------------------------
d--------------------------
a-7-9-7---7-9-7---7-9-7----
e-------9-------9-------9--
1 2 3 4 1 2 3 4 1 2 3 4

rhythm guitar 4/4
e-----------------------------------------------------------------------------------
b-----------------------------------------------------------------------------------
g-----------------------------------------------------------------------------------
d-9-9-9-9-9-9-9-9-9-9-9-9-9-9-9-9-9-9-9-9-9-9-9-9-7-7-7-7-7-7-7-7-7-7-7-7-7-7-7-7---
a-9-9-9-9-9-9-9-9-9-9-9-9-9-9-9-9-9-9-9-9-9-9-9-9-7-7-7-7-7-7-7-7-7-7-7-7-7-7-7-7---
e-9-9-9-9-9-9-9-9-9-9-9-9-9-9-9-9-9-9-9-9-9-9-9-9-7-7-7-7-7-7-7-7-7-7-7-7-7-7-7-7---
1 2 3 4 1 2 3 4 1 2 3 4 1 2 3 4 1 2 3 4 1 2 3 4 1 2 3 4 1 2 3 4 1 2 3 4 1 2 3 4

e--------------------------
b--------------------------
g--------------------------
d-7-7-7-7-7-7-7-7----------
a-7-7-7-7-7-7-7-7----------
e-7-7-7-7-7-7-7-7----------
1 2 3 4 1 2 3 4


Comments:

Guest access is read-only. To write comment, please login!



Copyright © 2004-2009 All-Guitar-Chords.com. All rights reserved.