new transposer      circle of 5ths    wap



Sus2 Tapped Arpeggios

by zkman

Votes 1 | Rating 5




E-t19p12h14r--------14p12-
B------------t19p12------- (play 4 times)

E-t17p10h12r--------12p10-
B------------t17p10------- (play 4 times)

E-t15p8h10r-------15p8--
B-----------t15p8------- (play 4 times)

E-t12p5h7r-------7p5-
B----------t12p5----- (play 4 times)

E-t10p3h5r-------5p3---
B----------t10p3------- (play 4 times)

E-t15p8h10r-------15p8--
B-----------t15p8------- (play 2 times)

E-t17p10h12r--------12p10-
B------------t17p10------- (play 2 times)


these are two string Sus2 arpeggios,tapped on the two strings.the Sus2 chords here are E sus2,D sus2,Csus2,Asus2,Gsus2,Csus2,Dsus2.
overall i would say this is in the key of E minor.

tab key:
t=tap
p=pull off
h=hammer on
r=ring *letting the note ring*

i usually play this clean,but distortion sounds nice to.


Comments:

01
09.10.2011
  TANCLAWS

why has no one commented on this?.... well, two thumbs up buddy.... this lick is bad ass.

Guest access is read-only. To write comment, please login!



Copyright © 2004-2009 All-Guitar-Chords.com. All rights reserved.