new transposer      circle of 5ths    wap



Arpeggio lick in the key of G major

by zkman
 



E----------------7h10p7t15p10t17p7t19p10p7------------------
B--------------8---------------------------8----------------
G------------7-------------------------------7--------------
D----------9-----------------------------------9------------
A-----5s10---------------------------------------10s5-------
E-3h7-------------------------------------------------7-5-3-

E------------------8h12t17p8t19p12t20p12p8--------------------
B---------------10-------------------------10-----------------
G-------------9-------------------------------9---------------
D----------10-----------------------------------10------------
A-----7s12-----------------------------------------12s7-------
E-5h8---------------------------------------------------8-7-5-


this lick starts on a G maj arp with the notes G,A,and B tapped onto the lick on the high E string past the 12th fret.

then it goes to and A min arp with the notes A,B,and C onto the lick on the high E string past the 12th fret.

TAB Key:
s=slide
h=hammer on
p=pull off
t=tap

Comments:

Guest access is read-only. To write comment, please login!



Copyright © 2004-2009 All-Guitar-Chords.com. All rights reserved.