new transposer      circle of 5ths    wap



Experimental

by Guitarslinger124

Votes 1 | Rating 5

Experimental
Hey guys! Back with another lick; I know it's been awhile.
This lick is the key of C major with an added #6(A#), #2(D#) and a #5(G#).
The image above are the notes and pattern of the lick.




e:------------------------------------------------------------------
B:---3/5-3-------------8-10-8---------------------------------------
G:--4-----4-4-3-2-3~--9------9--9-8-7-8~------------------9-----9-10
D:-5-------5--------10--------10--------------7----9-10-12-12-10----
A:--------------------------------------7-8-10-10-8-----------------
E:------------------------------------------------------------------

e:-----------------10-------------12-----------12-----------------|
B:---9-----10-12-13-13-12-12-13-16--15-13-12-12--12-15-15~~~/17~~~|
G:-12-12-10-------------------------------------------------------|
D:----------------------------------------------------------------|
A:----------------------------------------------------------------|
E:----------------------------------------------------------------|



Comments:

01
11.18.2009
  JazzMaverick

Very cool man! I'm liking this! Keep it up!

02
11.22.2009
  Guitarslinger124

Glad you like it

Guest access is read-only. To write comment, please login!



Copyright © 2004-2009 All-Guitar-Chords.com. All rights reserved.