new transposer      circle of 5ths    wap



Mysterious Theme

by Guitar_Demon

Votes 2 | Rating 4.5


------------------------------------------------------------------------------------------------------------------------------
------------------------------------------------------------------------------------------------------------------------------
------------------------------------------------------------------------------------------------------------------------------
----------5---7---8------------5---7---8---------------3---5---6------------3---5---6--------------------------------
-------5----------------------5------------------------3---------------------3---------------------------------------------
----5----------------------5------------------------3---------------------3------------------------------------------------X2


------------------------------------------------------------------------------------------------------------------------------
------------------------------------------------------------------------------------------------------------------------------
------------------------------------------------------------------------------------------------------------------------------
---------5---------------------------------------5--------------------------------------------------------------------------
-----5------5---6---8---6---5-------------5-----5---5---6---8---------------------------------------------------------
--5----------------------------------------5---------------------------------------------------------------------------------X2


-----------------------------------------------------------------------------------------------------------------------------
------------------------------------------------------------------------------------------------------------------------------
------------------------------------------------------------------------------------------------------------------------------
--------3--------------------------------------3-----------------------------------------------------------------------------
-----3-----3----4----6---4---3-----------3----3---3----4---6-----------------------------------------------------------
--3---------------------------------------3----------------------------------------------------------------------------------X2


----------------------------------
----------------------------------
----------------------------------
----1--------------0-------------
----1--------------0-------------
----1--------------0-------------


This is something I came up with, It sounds great clean, but u can also play distorted. D tuning
It sounds best with a tempo of 80 bpm.
U can add on to it...That will jus get u started.

Comments:

01
01.27.2008
  Guitarslinger124

pretty cool dude...

02
01.27.2008
  Guitar_Demon

Thanks man ^_^

03
02.18.2008
  OldeRockerChick

I like it. Very Dark. Love it dark. xX

04
01.22.2010
  ihlerj91

did you make this up in sixty seconds?

Guest access is read-only. To write comment, please login!



Copyright © 2004-2009 All-Guitar-Chords.com. All rights reserved.