new transposer      circle of 5ths    wap



Easy Pentatonic Lick

by ludorino
 

Hi guys!

Here comes my very very first "lick" that came out while I was practising pentatonic scales. I'm just a beginner, and I'm not even sure if the term "lick" is correct.

I hope, it's of some fun for you. Critics and comments are very welcome. In my early stage every feedback will help me! So, please fire it out! :-)





E---10p9-12------------------------------------------------
B-----------10-12------------------------------------------
G-------------------11p9------9----------------------------
D------------------------9-11------------------------------
A----------------------------------------------------------
E----------------------------------------------------------


E---12-----------------------------------------------------
B------10(h)12---------------------------------------------
G--------------11--------9---------------------------------
D-------------------9h11---11---9h11-----------------------
A------------------------------------9---------------------
E----------------------------------------------------------


E----------------------------------------------------------
B----------------------------------------------------------
G---11p9------11p9-----11p9--------------------------------
D--------11--------9-------------10p9------11p9------------
A---------------------------12--------9-12------12---------
E----------------------------------------------------------


E----------------------------------------------------------
B----------------------------------------------------------
G---11p9------11p9-----11p9--------------------------------
D--------11--------9-----------------------11p9------------
A---------------------------12--------9-12------12---------
E--------------------------------9h12----------------------


E----------------------------------------------------------
B----------------------------------------------------------
G---------------------9----------11-9----------------------
D---9h11-9-----9h11-9-----9h11-9------9(h)11---------------
A----------9---------------------------------9-------------
E----------------------------------------------------------




E----12-9--------------------------------------------------
B---------10----------------10-----------------------------
G------------11--------9-11--------------------------------
D-----------------9h11-------------------------------------
A----------------------------------------------------------
E----------------------------------------------------------


E---12p9--------------------------------9--------------------------------
B--------10-----------10--------12--------10-----------------------------
G-----------11---9h11------9h11----9h11------11-9--------9---------------
D---------------------------------------------------9h11---11-9h11-------
A------------------------------------------------------------------9-----
E------------------------------------------------------------------------


E----------------------------------------------------------
B----------------------------------------------------------
G----------------------------------------------------------
D---9h10-9----------------11p9-----------------------------
A-----------------9-12---------12--------------------------
E------------9h12------------------------------------------


Comments:

01
10.15.2009
  chrisguitarist15

im a begginner and i have question what do the numbers mean on that diagram? frets?

02
10.16.2009
  ludorino

hi chrisguitarist15,
maybe, have a look at that: http://www.all-guitar-chords.com/lesson.php?id=99

03
03.03.2010
  sosippus

I got a tip for you: check out the blues scale: by adding some diminished 5th or sharp 7th you will add more colour to your solos. (The blues scale adds a diminished fith). Just make sure not to hold that diminished 5th or #7th for too long or pick them at beat - it will sound bad. But you may use hammer-ons & pull-offs to use these, for instance. sounds pretty cool with jazzy rythms

04
06.29.2013
  MetalLick

I think this is good and simple. I like it

Guest access is read-only. To write comment, please login!



Copyright © 2004-2009 All-Guitar-Chords.com. All rights reserved.