new transposer      circle of 5ths    wap



spice up your sweep arpeggio with taps!

by metalman167

Votes 2 | Rating 3


this isnt upposed to be super fancy but it shows how u can tap each of these notes during the whole arpeggio so that its almost like two sweeps in one


T T T T T
-17p15p12------------------------------------------
----------15p13------------------------------------
----------------14p12------------------------------
---------------------(16)15p14---------------------
-------------------------------17p15p12------------
---------------------------------------------------


obviously its not technically a sweep. but youd do it as fast as a sweep.
if ur right hand can keep up ;)

i put 16 in paranthesis because the 15 wont always sound right depending on the rythym


and if u cant tell what i mean by two sweeps in one ill show you what the taps make if u used the individually


-17------------------------------------------------
----15---------------------------------------------
-------14------------------------------------------
----------(16)15-----------------------------------
-----------------17--------------------------------
---------------------------------------------------



which is close too

this or this
--17p13------------------17p14---------------------
--------15---------------------15------------------
-----------14---------------------14---------------
--------------15---------------------16------------
-----------------17---------------------17---------
---------------------------------------------------


enjoy!

Comments:

01
09.23.2009
  geoloks

it sounds like most hardcore metal sweeps people do
and it souds preety clean if u keep practicing it

good job :D

Guest access is read-only. To write comment, please login!



Copyright © 2004-2009 All-Guitar-Chords.com. All rights reserved.