new transposer      circle of 5ths    wap



Magic 7th's

by Guitarslinger124

Votes 1 | Rating 5


Hey there, guitarslinger here. I came up with this lick to demonstrate how awesome 7ths are and what they can add to a riff, progression or lick. First I simply tabbed out the arpeggios and chord changes so you can see what it is you're playing. Then I tabbed it out as it should be played. Enjoy!



Em/Em7 C/Am7 B/B7 D D7/Bm7 E5/Em Am/Am7 Emadd9 C7 Emadd9 D#madd9 Emadd9
e:-7--10----------------------------3-0---3-0---------------------------------
B:--8----8---10-7--10-10----13-12---0---1-1-----------------------------------
G:---9----9------8------11--------0-0---2-2---0-0----0-0-9------8--------0-0--
D:---------10-----9-------12------2-2---2-2---4-4----2-2-9------8--------4-4--
A:--------------------------------2-2---0-0---2-2----3-3-10-----9--------2-2--
D:--------------------------------2-2---------2-2----5-5-12-----11-------2-2--
Am7 F9
e:-------|
B:-------|
G:-0-----|
D:-2--7--|
A:-3--8--|
D:-3--10-|

Play it fairly slow and let every note ring until you switch finger position. I finger pick the whole lick, but play it the way that is comfortable for you.


e:-7--10~-----------------------------3\0----3\0------------------------------|
B:--8----8---10~7--10~10----13\12---------1-1---------------------------------|
G:---9----9------8------11---------0-0----2-2----0-0-0-0-9-\8-~-0-0--0--------|
D:---------10-----9-------12-------2-2----2-2----4-4-2-2-9-\8-~-4-4--2/7------|
A:---------------------------------2-2----0-0----2-2-3-3-10\9-~-2-2--3--8-----|
D:---------------------------------2-2-----------2-2-5-5-12\11~-2-2--3---9~~~~|




Comments:

01
09.19.2009
  Geetur

some cool sounding chords there

02
01.10.2010
  deathrash

I fell in love with an Emadd9.

Guest access is read-only. To write comment, please login!



Copyright © 2004-2009 All-Guitar-Chords.com. All rights reserved.