new transposer      circle of 5ths    wap



MAB style (Sweep Arpeggios)

by DarkRiff

Votes 1 | Rating 4




|-----13h17p13------13h17p13------13h18p13------13h18p13---|
|---15--------15--15--------15--15--------15--15--------15-|
|-14------------14------------15------------15-------------|
|----------------------------------------------------------|
|----------------------------------------------------------|
|----------------------------------------------------------|

|-----15h20p15------15h20p15------13h18p13------13h18p13--------|
|---17--------17--17--------17--15--------15--15--------15------|
|-17------------17------------15------------15------------14~~~~|
|---------------------------------------------------------------|
|---------------------------------------------------------------|
|---------------------------------------------------------------|


Michael Angelo Batio uses this alot.

He said he took Randy Rhoads tapping arpeggios and turned them into Sweep Arpeggios.

Comments:

01
07.31.2009
  guitarmastergod

ah yes this is from his "time to burn" column from guitar world(i think). i have the dvd lol

02
09.19.2010
  gshredder2112

nice tab man thanks

Guest access is read-only. To write comment, please login!



Copyright © 2004-2009 All-Guitar-Chords.com. All rights reserved.