new transposer      circle of 5ths    wap



Liberty

by pronzassassin
 


Liberty
(Intro Only)
Band Name: Your Salvation

Email: Darkdem0n84@hotmail.com

Drop C Tuning: CGCFAD
Difficulity: Novice
Genre: Unknown

~ Let Ring
. Palm Mute
* Pinch Harmonic
/ Slide Up
\ Slide Down
^ Vibrato
h Hammer on
p Pull off
b Bend


Intro
(Clean) Riff A x2
C|--------------------
G|-------9------------
C|----9----9--9-------
F|--7---7----7--------
A|-0------------------
D|--------------------

Riff B x2
C|--------------------
G|-------5------------
C|----5----5--5-------
F|--3---3----3--------
A|-0------------------
D|--------------------

Riff A x2
C|--------------------
G|-------9------------
C|----9----9--9-------
F|--7---7----7--------
A|-0------------------
D|--------------------

Riff B x2
C|--------------------
G|-------5------------
C|----5----5--5-------
F|--3---3----3--------
A|-0------------------
D|--------------------

Pre-Chours
C|-----------------------
G|-----------------------
C|-----------------------
F|----7/---5/---8/---3---
A|---7----5----8----3----
D|--7----5----8----3-----

Thats all so far, your going to have to wait until i make the full version is made.

Comments:

01
10.01.2009
  GUitarDUde09

i dont like drop c, but still good song

Guest access is read-only. To write comment, please login!



Copyright © 2004-2009 All-Guitar-Chords.com. All rights reserved.