new transposer      circle of 5ths    wap



Ich weiß nicht, was ich soll dieses Liede heißen.

by Hrothgarth
 

(Title in German means: I don't know what I shall call this song.)

Clayton Chesser (C)2009



Riff 1A (once):
E|--------------------------------
B|--------------------------------
G|--------------------------------
D|--------5---5----------3---3----
A|----3-3------------1-1-------1-0
E|----------3---5-3--------1------

Riff 1B (twice):
E|--------------------------------
B|--------------------------------
G|--------------------------------
D|--------5---5----------3---3----
A|----3-3---5--------1-1---3---1-0
E|----------3---5-3--------1------

Riff 1C (once) (that long chain of G power chords at the end amounts to 16):
E|-----------------------------------------------------------------------------------
B|-----------------------------------------------------------------------------------
G|-----------------------------------------------------------------------------------
D|--------5---5----------------------------------------------------------------------
A|----3-3---5--------3-3-3-5-----5-5-5-5-5-5-5-5-5-5-5-5-5-5-5-5---------------------
E|----------3---5-3--1-1-1-3-----3-3-3-3-3-3-3-3-3-3-3-3-3-3-3-3---------------------

After the 16 power chords at the end of riff 1C the second time around, play this (includes 16 power chords from riff 1C so it can be played elsewhere in the song, and is played four times):

Riff 2:
E|-----------------------------------------------------------------------------------
B|-----------------------------------------------------------------------------------
G|-----------------------------------------------------------------------------------
D|--------------------------------5-------------------------------------3------------
A|5-5-5-5-5-5-5-5-5-5-5-5-5-5-5-5-3-333-3-3-3-3-3-3-3-3-3-3-3-3-3-3-3-3-1------------
E|3-3-3-3-3-3-3-3-3-3-3-3-3-3-3-3---111-1-1-1-1-1-1-1-1-1-1-1-1-1-1-1-1--------------

Solo Riff 1A (twice):
E|-----------------------------------------------------------------------------------
B|-----------------------------------------------------------------------------------
G|-----------------------------------------------------------------------------------
D|----5-5-----5-5-----5-5-----5-5----------3-3-----3-3-----3-3-----3-3---------------
A|----------------------------------------------------------------------1-0----------
E|3-3-----3-3-----3-3-----3-3-----5-3--1-1-----1-1-----1-1-----1-1-------------------

Solo Riff 1B (twice):
E|-----------------------------------------------------------------------------------
B|-----------------------------------------------------------------------------------
G|-----------------------------------------------------------------------------------
D|----5-5-----5-5-----5-5-----5-5-------------3-3-----3-3-----3-3-----3-3------------
A|5-5-----5-5-----5-5-----5-5-------------3-3-----3-3-----3-3-----3-3-------1-0------
E|3-3-----3-3-----3-3-----3-3-------5-3---1-1-----1-1-----1-1-----1-1----------------

Solo Riff 2 (once):
E|-----------------
B|-----------------
G|-----------------
D|----------------3
A|3-3-3-3-3-3-3-3-1
E|1-1-1-1-1-1-1-1--

Okay, now here is the order of this song:

Riff 1(A-C) (twice)
Riff 2
Riff 1(A-C) (twice)
Riff 2
Solo Riff 1A (twice)
Solo Riff 1B (twice)
Solo Riff 2
Riff 2
Riff 1(A-C) (twice)

Comments:

01
06.02.2009
  Guitarslinger124

Kühlen scheiße mann.

02
06.06.2009
  league

Leicht zu spielen. Kuhl!

03
06.09.2009
  Hrothgarth

Ich spielte diese Liede in der Begabungleistung.

(I hope I said that right. I'm still learning German, and 'Begabungleistung' is supposed to mean 'talent show')

Guest access is read-only. To write comment, please login!



Copyright © 2004-2009 All-Guitar-Chords.com. All rights reserved.