new transposer      circle of 5ths    wap



Zakk Wylde Lick - Pentatonic

by sTx

Votes 4 | Rating 3.25



Saad Talha
Zakk Wylde Pentatonics










S S S S S S S S S S S S S
E||--15-12-15-12-------15-12-15-12-------15-1
B||--------------15-12-------------15-12-----
G||------------------------------------------
D||------------------------------------------
A||------------------------------------------
E||------------------------------------------


S S H S S S S S S S S S
-----------------17-14-17-14-------17-14-17-1
--15-12----------------------17-14-----------
---------------------------------------------
---------------------------------------------
---------------------------------------------
---------------------------------------------


S S
--------||
--17-14-||
--------||
--------||
--------||
--------||




Duration Legend
---------------
W - whole
H - half
Q - quarter
E - 8th
S - 16th
T - 32nd
X - 64th
. - note dotted
|-n-| - n-tuplets


Tablature Legend
----------------
L - tied note
x - dead note
g - grace note
(n) - ghost note
> - accentuded note
NH - natural harmonic
AH - artificial harmonic
TH - tapped harmonic
SH - semi harmonic
PH - pitch harmonic
h - hammer on
p - pull off
b - bend
br - bendRelease
pb - preBend
pbr - preBendRelease
brb - bendReleaseBend
\n/ - tremolo bar dip
\n - tremolo bar dive
-/n - tremolo bar Release up
/n\ - tremolo bar inverted dip
/n - tremolo bar return
-\n - tremolo bar Release down
S - shift slide
s - legato slide
/ - slide into from below or out of upwards
\ - slide into from above or out of downwards
~ - vibrato
W - wide vibrato
tr - trill
TP - tremolo picking
T - tapping
S - slap
P - pop
< - fade in
^ - brush up
v - brush down

Comments:

01
01.06.2008
  chcrush27

Dude there's more Legend then tab

02
01.13.2014
  star_then_strat

You could that this lick is... LEGENDARY :D

Guest access is read-only. To write comment, please login!



Copyright © 2004-2009 All-Guitar-Chords.com. All rights reserved.