new transposer      circle of 5ths    wap



Lick in B minor

by HeavyGuitar

Votes 4 | Rating 4.75


Here is a little lick i made. As usual, nothing special, just fun to play and it sounds good. Its in B minor and it's a good exercise for your fingers aswell:)

It's one lick. NOT four individual licks:)


4/4
E|---------------------------------------------|
B|---------------------------------------------|
G|------------11----------9----------12-11-9---|
D|-9-12-11-12---12-11-12---12-11-12---------12-|
A|---------------------------------------------|
E|---------------------------------------------|

E|-----------------------------------------|
B|-----------------------------------------|
G|-----------7---------9-------------------|
D|-7-11-9-11---11-9-11---11-9-11-7-11-9-11-|
A|-----------------------------------------|
E|-----------------------------------------|

E|---------------------------------|
B|---------------------------------|
G|---------7-------6---------------|
D|-5-9-7-9---9-7-9---9-7-9-5-9-7-9-|
A|---------------------------------|
E|---------------------------------|

E|-----------------------------------------|
B|-----------------------------------------|
G|-----------7---------9-------------------|
D|-7-11-9-11---11-9-11---11-9-11-7-11-9-11-|
A|-----------------------------------------|
E|-----------------------------------------|
Repeat



Rate, comment and enjoy:)

Comments:

01
05.10.2009
  Jguitar914

Cool man...

And your right, it is a good finger exercise!

02
05.10.2009
  HeavyGuitar

Thanks:)

03
05.15.2009
  DonovanB

thats awesome

04
05.16.2009
  HeavyGuitar

Thank you:)

05
05.19.2009
  ZapTap

I like it :D

06
01.10.2010
  deathrash

playing that 10x in a row hurts. means it's good! great lick, great exercise!

07
10.03.2010
  Derf

I like this quite a bit

Guest access is read-only. To write comment, please login!



Copyright © 2004-2009 All-Guitar-Chords.com. All rights reserved.