new transposer      circle of 5ths    wap



Something to think about

by Guitarslinger124

Votes 2 | Rating 4


This riff/lick is played in Drop C standard tuning. I based the riff/lick off the G and F Aeolian scales, however, I added some simple chromatic elements and got something closer to D Hungarian Major.


D:------------------------------------------------------------------
A:------------------------------------------------------------------
F:------------------------------------------------------------------
C:------------------------------------------------------------------
G:---------------------------------0-4-5-0-5-7-8-0-7-8-0-8-10-11-10-
C:-0-4-5-0-5-7-8-0-7-8-0-8-10-11-10---------------------------------


D:------------------------------------------------------------------
A:------------------------------------------------------------------
F:------------------------------------------------------------------
C:------------------------------------------------------------------
G:-0-5-7-0-7-8-10-0-8-10-0-10-11-13-11----------------0-12-14-12-15-
C:-------------------------------------0-12-13-0-12-15--------------

D:---------------------------1312-----------------------------------
A:-------------------------14-----13---------------------------------
F:-----------11-14-12-14-15---------14-129--------------------------
C:------12-14------------------------------12-10-9-------------7/97-
G:-12-14------------------------------------------12-10-8-----8------
C:-------------------------------------------------------9-7-9-------

D:------------------------------------------------------------------------
A:---------------------------------------------------------4/5/8----------
F:----------------------------------------------1/2/4-p.h.5-----7-9-------
C:---------7-------------7--10-9-p.h.7\(0)-2/3-5-------------------10-9-7-
G:-8-7-8-10-10-8-7------7--8----------------------------------------------
C:--9-------------10-9-7--7-----------------------------------------------


Comments:

01
03.01.2009
  monitor

awesome man!! im glad theres someone else who likes to play CGCFAD. keep it coming

Guest access is read-only. To write comment, please login!



Copyright © 2004-2009 All-Guitar-Chords.com. All rights reserved.