new transposer      circle of 5ths    wap



Just Another Day's Composition 1

by Remn

Votes 2 | Rating 5





~~ ~~~ ~ ~~ P.H.~~
|-------------------------------10-10p9---------------------------------------------
|---------------------------------------10==\7=-7/12-(12)==-7-12-9-15-12-17b===r----
|---------9-9p7---------------------------------------------------------------------
|-----------------7===----/12=------------------------------------------------------
|--/9==-----------------------------------------------------------------------------
|-----------------------0---------------------------------------------------------
P.H. P.H.~~~
|--14/15---------------------------------------------------------------
|-------17/19==-17-17-17p15-(15)=\12-(12)===---------------------------
|---------------------------------------------17-16-17/19-19==----------
|--------------------- --- -------------------x--x-- x---- x-----------
|---------------------------------------------15-14-15/17-17==-----------
|-----------------------------------------------------------------------
P.H. ~
|-----------14p12-17=\10-10-----------------------------------------10----
|---------------- x------ x---------------10p9-10p9-10p9----------- x----
|-------11------ -14=\7---7-----7-(9)b==-10p9-10p9-10p9--7==-----7=-7----
| ----12---------------------9------------------------- 0==-7/9----------
|-- 9---------------------------------------------------------------------
|-------------------------------------------------------------------------





Drop D Tuning

didnt know what to call it
sorry if it looks messed up
first lick on this site
be nice

Comments:

01
12.14.2007
  Guitarslinger124

what do the "=" mean?

02
12.14.2007
  Remn

oh sorry
you guys arent used to my style of tabbing
the "=" indicates around how long you should hold a note
and if its connects by, like in this one, a slide symbol
then slide without picking
and the pinch harmonics are optional too

03
12.14.2007
  Guitarslinger124

i wish i knew a way to do the hammer on and pull off symbols, it really annoys me that there is not a key on the keyboard for that hehe....

04
12.17.2007
  Remn


haha
i actually thought about that
the other day

05
05.05.2009
  bigdcornholio3

For hammer ons and pull offs i like to put a line underneath the desired notes like this. 2_4

Guest access is read-only. To write comment, please login!



Copyright © 2004-2009 All-Guitar-Chords.com. All rights reserved.