new transposer      circle of 5ths    wap



cool tapping thing

by EMB5490

Votes 2 | Rating 3.5




do each tapping thing 4 times then move to next position
(tapping thing)(another thing)(twice) (4 times)
e--12-8-5-0-----12-7-4-0-------12-5-2-0--10-5-2-0 (2 times 2 times )
b-------------------------------------------------14-9-5---12-9-5--12-8-5-12-7-4-
g--------------------------------------------------------------------------------
d--------------------------------------------------------------------------------
a--------------------------------------------------------------------------------
e--------------------------------------------------------------------------------




e-- (2X) (2X)
b--10-7-4---10-5-2-0---9-5-2-0---9-4-2-0---8-4-2-0---9~
g------------------------------------------------------
d------------------------------------------------------
a------------------------------------------------------
e------------------------------------------------------

followed by the suicide solution tapping thing (kinda where i got this, just started to go down the scale)


All things 4 times
e--7-4-0--8-5-0--12-8-0--10-7-0--8-5-0--7-4-0------------------------------
b---------------------------------------------12-8-0--10-7-0--8-5-0--7-4-0-
g--------------------------------------------------------------------------
d--------------------------------------------------------------------------
a--------------------------------------------------------------------------
e--------------------------------------------------------------------------




e----------------12-7-4--12-8-5--15-10-7--17-12-8--17-12-9--16-12-9--17-12-9-
b--8-5-0--12-8-5-------------------------------------------------------------
g----------------------------------------------------------------------------
d----------------------------------------------------------------------------
a----------------------------------------------------------------------------
e----------------------------------------------------------------------------

Comments:

01
12.21.2008
  Sylver710

I like it, it has a good flow to it

Guest access is read-only. To write comment, please login!



Copyright © 2004-2009 All-Guitar-Chords.com. All rights reserved.