new transposer      circle of 5ths    wap



Am with a twist

by Guitarslinger124

Votes 3 | Rating 4.33


play the "/" and "\" with hammer-ons and pull-offs [respectively].




E:----------------5/8\5-----7/10\7------8/11\8-----------12/15\12---------11/14\11
B:---3/6\3-------6-----6---8------8----9------9----8---13--------13-----12--------
G:--4-----4---5-7-------7/9--------9/10--------10-9--14------------14\13----------
D:-5-------5/7--------------------------------------------------------------------
A:--------------------------------------------------------------------------------
E:--------------------------------------------------------------------------------

E:---------10/13\10---------9/12\9--------8/11\8-------||
B:12-----11--------11-----10------10-----9------9------||
G:--13\12------------12\11----------11\10--------10-9--||
D:---------------------------------------------------7-||
A:-----------------------------------------------------||
E:-----------------------------------------------------||

Comments:

01
12.09.2007
  Guitarslinger124

this lick is based off the A natural minor scale, but i added some chromatic sounds to spice it up a bit.

02
02.18.2008
  OldeRockerChick

SWEET! xX

Guest access is read-only. To write comment, please login!



Copyright © 2004-2009 All-Guitar-Chords.com. All rights reserved.