new transposer      circle of 5ths    wap



Another unfinished

by scr1m3

Votes 1 | Rating 4


Hey people,

Again, I thought this sounded cool but would love some ideas on a rhythm or variations.



repeat first bar twice : play this bar once

:----------------------:-------------------------------:-
:----0--0------0--0----:---0--0------0--0--------------:-
:---0--0--0~--0--0--0~-:--0--0------0--0---0--0--0-----:-
:----------------------:-------------------------------:-
:-7---7--7---6--6--6---:-7--9--10~-7--9--10-10-10-10-9-:-
:----------------------:-------------------------------:-



and so on and so forth

---------------------------:------------------------------
---0--0------0--0---0---0--:------------------------------
--0--0------0--0---7-7-7-0-:------------------------------
---------------------------:------------------------------
-7--9--10~-7--9--10---9----:------------------------------
---------------------------:------------------------------

Comments:

Guest access is read-only. To write comment, please login!



Copyright © 2004-2009 All-Guitar-Chords.com. All rights reserved.