new transposer      circle of 5ths    wap



Ghost Of The Navigator By Iron Maiden

by mr.money47
 

*Intro Riff



e|--------------------
B|--------------------
G|----14-12-10-9-10---
D|-12---------------10
A|--------------------
E|--------------------




e|-------------------
B|-------------------
G|----14-12-10-9-10-9
D|-12----------------
A|-------------------
E|-------------------


After that, go into this...



e|---------------------------------
B|---------------------------------
G|----12-10-9-10-9-----10-9-7-9-7--
D|-10-------------10\8------------8/Intro Riff*
A|---------------------------------
E|---------------------------------


*after that last 8 i like to slide into the beggining riff

*Repeat entire thing 2x

Key:
\ = Slide down
/ = Slide up


Comments:

Guest access is read-only. To write comment, please login!



Copyright © 2004-2009 All-Guitar-Chords.com. All rights reserved.