new transposer      circle of 5ths    wap



A riff I came across.

by Ozzfan486
 





------------------------------------------------------------------------|
------------------------------------------------------------------------|
------------------------------------------------------------------------|
-9pb--7-----------------2-----------------------------------------------|
---------9pb--7---5/3---0----------9pb--7-------------------------------|
-------------------------------------------9pb--7---5/3----5~~~---------|

------------------------------------------------------------------------|
------------------------------------------------------------------------|
------------------------------------------------------------------------|
-9pb-7------------------------------------------------------------------|
-------9pb--7--5/3--5~~~~~-----9pb--7--------------2~~~-----------------|
--------------------------------------9pb--7--5/3--0~~~-----------------|



PB - Pre -bend
/ - Slide
~~~ - Let ring [vibrato]


Tell me whatcha think.

Comments:

Guest access is read-only. To write comment, please login!



Copyright © 2004-2009 All-Guitar-Chords.com. All rights reserved.