new transposer      circle of 5ths    wap



GodFather theme

by VAdim

Votes 1 | Rating 3


GodFather theme by me the one that slash play's



-------------------------------|---------------------------------------|
-15----14-15-16-15-15----------|--15---14-15-16-15-15------------------|
-----------------------15~~~~\-|----------------------14~~~~\----------|
-------------------------------|---------------------------------------|
-------------------------------|---------------------------------------|
-------------------------------|---------------------------------------|

BR BR
-------------13----------------|---------------------------------------|
-15~~~-14-15----15-14-----15---|---------------14----------------------|
-------------------------------|--15--14--15----------14~~~~~\---------|
-------------------------------|---------------------------------------|
-------------------------------|---------------------------------------|
-------------------------------|---------------------------------------|

Drums (cymbal) & Piano In
-------13-12----13----12----------------|--------13-12----13----12-----
----15-------15----15----15----13-------|-----15-------15----15----15--
-14-------------------------15----14~~~-|--14--------------------------
----------------------------------------|------------------------------
----------------------------------------|------------------------------
----------------------------------------|------------------------------


------------------
-12-/-14-13-12~~~~
------------------
------------------
------------------
------------------

BR BR
---------------------------------------------------------------------|
-----15---------14-15~~~~--------------------------------------------|
---x------14-15-------------14-15-14--15--14~~-15--14----------------|
-x-----------------------------------------------------15--11--12----|
---------------------------------------------------------------------|
---------------------------------------------------------------------|

Main Riff (Full Drums In)
BR B BR BR BR BR BR BR BR
----------------12---------------------------------------------------|
-15--15--14--13-----13--10----9----9----8----10---8----10------------|
---------------------------------------------------------------------|
---------------------------------------------------------------------|
---------------------------------------------------------------------|
---------------------------------------------------------------------|

H P H P
---------13--12-13-12--------13-12----12------------------------|
------15--------------15-13--------15----15-13-15----13---------|
-/14----------------------------------------------15----14~~~~~-|
----------------------------------------------------------------|
----------------------------------------------------------------|
----------------------------------------------------------------|






H P
-------13-12-13-12-------12-13----12------------------------|
----15-------------15-13-------15-----13--15----------------|
-14--------------------------------------------/14-13-12~~~-|
------------------------------------------------------------|
------------------------------------------------------------|
------------------------------------------------------------|

BR BR
----------------------------------------------------------------|
-----15---------------------------------------------------------|
---x--------------14-15-----------------------------------------|
-x-------/12---15-------14-15-14-15-----14----------------------|
----------------------------------------------12/15~~~~~~~~~~~--|
----------------------------------------------------------------|


----------------------------------------------------------------|
----------------------------------------------------------------|
----------------------------------------------------------------|
-11~~~~~~~~~~~~~~---------12~~~~~~~~~~~~~~~-\-------------------|
----------------------------------------------------------------|
----------------------------------------------------------------|

For Slash Tone on this song Switch Wah-Wah pedal on and clock it in
the bass position with distortion on.

If you don't have Wah-Wah pedal turn tone down on the guitar.


~ = Vibrato
\ = Slide Down
/ = Slide Up
BR = Bend and Release
B = Bend
H = Hammer on
P = Pull off


Comments:

01
12.06.2008
  patleh

Dude i enjoyed this a lot i might use a lick like this in a song.

Guest access is read-only. To write comment, please login!



Copyright © 2004-2009 All-Guitar-Chords.com. All rights reserved.