new transposer      circle of 5ths    wap



arpeggios from hell

by domination2236
 




D|-------------------8-12-8----------------------------------|
A|----------------10--------10-------------------------------|
F|--------------9--------------9-----------------------------| #1
C|-----------10------------------10--------------------------|
G|------7-12------------------------12-----------------------|
D|--5-8--------------------------------12--------------------|
pm ---------|

D|-----------------13-17-13----------------------------------|
A|--------------15----------15-------------------------------|
F|-----------14----------------14----------------------------| #2
C|--------15----------------------15-------------------------|
G|-----17----------------------------17----------------------|
D|--17---------------------------------17--------------------|

D|-------------------8-12-8----------------------------------|
A|----------------10--------10-------------------------------|
F|--------------9--------------9-----------------------------| #1 Repeat
C|-----------10------------------10--------------------------|
G|------7-12------------------------12-----------------------|
D|--5-8--------------------------------12--------------------|
pm ---------|

D|-----------------13-17-13----------------------------------|
A|--------------15----------15-------------------------------|
F|-----------14----------------14----------------------------| #2 Repeat
C|--------15----------------------15-------------------------|
G|-----17----------------------------17----------------------|
D|--17---------------------------------17--------------------|



some pretty cool combinations I did while missing around on the arpeggios.
Enjoy! Progression metal owns!

Comments:

01
09.09.2008
  guitarmastergod

its just the same arpeggio played up 2 frets

Guest access is read-only. To write comment, please login!



Copyright © 2004-2009 All-Guitar-Chords.com. All rights reserved.