new transposer      circle of 5ths    wap



Lick of Darkness

by sweetness_man

Votes 1 | Rating 2




This tab is best played fast
E--------------------------------------------------------------
B--------------------------------------------------------------
G--------------------------------------------------------------
D--------------------------------------------------------------
A--------12p11p9-12p11p9-12p11p9-12p11p9-12p11p9-12p11p9-12----
e--9-----------------------------------------------------------



E---------------------------------------------------------------------------
B---------------------------------------------------------------------------
G---------------------------------------------------------------------------
D---------------------------------------------------------------------------
A---------13p12p11-13p12p11-13p12p11-13p12p11-13p12p11-13p12p11-13p12p11----
e---10----------------------------------------------------------------------



E--------------------------------------------------------------
B--------------------------------------------------------------
G--------------------------------------------------------------
D--------------------------------------------------------------
A--------12p11p9-12p11p9-12p11p9-12p11p9-12p11p9-12p11p9-12----
e--9-----------------------------------------------------------



E---------------------------------------------------------------------------
B---------------------------------------------------------------------------
G---------------------------------------------------------------------------
D---------------------------------------------------------------------------
A---------13p12p11-13p12p11-13p12p11-13p12p11-13p12p11-13p12p11-13p12p11----
e---10----------------------------------------------------------------------



E------||-----------------------------------------------------------|
B------||O----------------------------------------------------------|O
G------||-----------------------------------------------------------| \ / | |
D------||-----------------------------------------------------------| \/ |__|
A------||O--15p14p12h15---14p13p11h14---13p12p10h13---14p13p11h14---|O /\ |
e---11-||-----------------------------------------------------------| / \ |



TAP THIS PART
E||-----------------------------------------------------------------17p10h13-17p10h13
B||O-16p9h12-16p9h12-16p9h12-16p9h12-16p9h12-16p9h12-16p9h12-16p9h12-----------------
G||----------------------------------------------------------------------------------
D||----------------------------------------------------------------------------------
A||O---------------------------------------------------------------------------------
e||----------------------------------------------------------------------------------



E-17p10h13-17p10h13-17p10h13-17p10h13-17p10h13-17p10h13--||--------------------------
B-------------------------------------------------------O||O-16p9h12-16p9h12-16p9h12-
G--------------------------------------------------------||--------------------------
D--------------------------------------------------------||--------------------------
A-------------------------------------------------------O||O-------------------------
e--------------------------------------------------------||--------------------------



E---------17p10h13-17p10h13-17p10h13-17p10h13--|| ____ E--17~~~~~~~~~~~~~~~~|
B-16p9h12-------------------------------------O|| \ / | B--------------------|
G----------------------------------------------|| \/ ____| G--------------------|
D----------------------------------------------|| /\ | D--------------------|
A---------------------------------------------O|| / \ ____| A--------------------|
e----------------------------------------------|| e--------------------|


Comments:

Guest access is read-only. To write comment, please login!



Copyright © 2004-2009 All-Guitar-Chords.com. All rights reserved.