new transposer      circle of 5ths    wap



arpeggio riff

by les_paul

Votes 4 | Rating 3.5


This is just a cool sounding riff I came up with using arpeggios.



Am C
E------------------------------------------------------------------|
B---------1---------------1-----------------1---------------1------|
G-----2-------2-------2-----2-----------0-------0-------0-----0----|
D---2---2---2---2---2---2-----2-------2---2---2---2---2---2-----2--|
A-0---------------0-----------------3---------------3--------------|
E------------------------------------------------------------------|
G Am
E------------------------------------------------------------------|
B---------0---------------0-----0h1---------1---------------1------|
G-----0-------0-------0-----0-----------2-------2-------2-----2----|
D---0---0---0---0---0---0-----0-------2---2---2---2---2---2-----2--|
A-----------------------------------0---------------0--------------|
E-3---------------3------------------------------------------------|

Comments:

01
01.18.2009
  WestrayMachine

It sounds amazing i think

Guest access is read-only. To write comment, please login!



Copyright © 2004-2009 All-Guitar-Chords.com. All rights reserved.