new transposer      circle of 5ths    wap



Texas Blues

by foogered
 

Here's a little lick a came up with for a song that I've since abandoned. It's got a bluesy feel, but it also has that "down south" kind of feel to me.



E|---------------------------------3---2p0---------6-5--|
b|-----2/1-1p0-------------3---5-------1-----1-1-x-8-7--|
g|-----3/2-2p0---2-2-------4---5-------2p0---2-2-x-6-5--|
d|-------------x-2-3-5-----4---5-----0-------2-2-x-8-7--|
a|--/2--p0---------------------------------0---3-x-6-5--|
e|---------------------3-3---3---3----------------------|

E|-------------------------|
b|-----2/1-1p0-------------|
g|-----3/2-2p0---2-2-[12]--|
d|-------------x-2-3-[12]--|
a|--/2---------------------|
e|-------------------------|


Enjoy!

Comments:

01
11.14.2013
  uglybucket

Awesome lick man but we have no idea how this lick is supposed to be played with out an audio file. Please add one!

Guest access is read-only. To write comment, please login!



Copyright © 2004-2009 All-Guitar-Chords.com. All rights reserved.