new transposer      circle of 5ths    wap



Indiana Jones Theme

by Remn
 




|-------------------------------------------------
|----------------------------6-6=-----------------
|---------5=----------0--2-4-2-2=-2-4-5--7---9=---
|--2--3-5-2=--------------------------------10=---
|--3--5-7----5--7-8=--2--3-5------3-5-7--10-------
|------------4--5-7=------------------------------

|--------------------------------------------------------------------------
|------------3-5-6==\-----5-3---5-3---5-3=----3---------------------3------
|---------5=---5-6==\-----5-5---5-5---5-5=-------------/5=-5-5-5b=r-5-5==--
|--2--3-5-2=-5--------5-5-3-3-5-3-3-5-3-3=-5-5-5p3-2-2--------------5------
|--3--5-7----------------------------------x-x-----3-3---------------------
|------------------------------------------5-5-----------------------------



Transposed from piano sheet music
I know the song goes alot longer
but I just got the cool part :p
Its in Drop D and I added my own little ending
Enjoy :]

Comments:

Guest access is read-only. To write comment, please login!



Copyright © 2004-2009 All-Guitar-Chords.com. All rights reserved.