new transposer      circle of 5ths    wap



From Guitarslingers: Trickster

by Remn

Votes 1 | Rating 5


standard tuning with an acoustic for once


~~ ~ ~ ~ ~ ~~
|-------------------------------------------------------------------
|-------------------------------------------------------------------
|----------------------------8----------9--------------------------
|-----------------7------------7----------7------------7h9=-9-9==--
|--6===L--7/9h10---9pbr=L------10-9=------9-10=--9-10------------
|-------------------------------------------------------------------
1/4
~ ~~
|------------------------8-7-----------------------
|---7-8-7--------------------8-7-10------8-8-------
|---------8-8h9=L------9-9-9-9-9--9-11-9-9-9-9==--
|--9-9-9-9-9---------------------------------------
|--------------------------------------------------
|------------------0===----------------------------
~~ ~ ~~ T ~~
|----7-8==--8b-7=--------------------------------------
|---8--------------8-8/11==h(17)-----------------------
|--9-------9------9-9--------------9--11b-9==L--------
|-----------------------------------10----------2====--
|-------------------------------------------------------
|--------------------------------11-------------0====---
1/4


L = legato slide
1/4 - microtone bend (very small bend)
you gotta have the feeling to play this one guys
im sure it sounds fine for electric too

thanks for idea slingerr
i just tweaked it up abit for ya ;]

Comments:

01
06.27.2008
  Remn

T stands for Tap by the way
whoops
your name is guitarslinger, my bad
sorry man :p

02
06.30.2008
  Guitarslinger124

good stuff dude

Guest access is read-only. To write comment, please login!



Copyright © 2004-2009 All-Guitar-Chords.com. All rights reserved.