new transposer      circle of 5ths    wap



Cissy Strut

by foogered

Votes 6 | Rating 4.83


This is a really cool groove by The Meters, and it's pretty simple too. This song is what got me into funk, and it's really easy to jam on. If you're just getting into this stuff, I'd recommend using C Minor Pentatonic. Listen to my recording for an idea of how it's played.



E|-------------------------6-6-5-5--|
b|-------------------------6-6-6-6--|
g|--5p3--------------------7-7-5-5--|
d|------5-1----------------8-8-7-7--|
a|----------3-------3---3-----------|
e|-------------/3h5---5-------------|

E|------------------------------|
b|------------------------------|
g|--5---5p3---5p3--5---5p3------|
d|----5-----5--------5----------|
a|-------------------------5-3--|
e|------------------------------|


For solo's just "funkify" a C9 chord. Enjoy!

Comments:

01
06.29.2008
  Empirism

Wow, Nice one!, Ill checked this one and immediately fellin love on it! more this kind of lick hints m8! :P

http://www.youtube.com/watch?v=BsE8uoXHayU&feature=related

02
07.10.2008
  FlyingVBlack

Nice Lick!

03
11.10.2010
  MoshZilla1016

Dude I don't know if you are still check out the site but if you do THIS IS COOL AAAAA+++++++++

Guest access is read-only. To write comment, please login!



Copyright © 2004-2009 All-Guitar-Chords.com. All rights reserved.