new transposer      circle of 5ths    wap



Joined: way back
Finland
Lessons: 1
Karma

Easy way to play some blues!

by paerdeveygh

13 May 2008
Views: 7654

I don't know if this has already been done, but here's an easy way to play a 12-bar blues in the key of E



E
----------------------------------|---------------------------------
----------------------------------|---------------------------------
----------------------------------|---------------------------------
---2-2--2-2------2-2---2-2--------|---2-2--2-2------2-2---2-2-------
---2-2--4-2------2-2---4-2--------|---2-2--4-2------2-2---4-2-------
---0-0--0-0------0-0---0-0--------|---0-0--0-0------0-0---0-0-------


E
----------------------------------|---------------------------------
----------------------------------|---------------------------------
----------------------------------|---------------------------------
---2-2--2-2------2-2---2-2--------|---2-2--2-2------2-2---2-2-------
---2-2--4-2------2-2---4-2--------|---2-2--4-2------2-2---4-2-------
---0-0--0-0------0-0---0-0--------|---0-0--0-0------0-0---0-0-------


A
----------------------------------|---------------------------------
----------------------------------|---------------------------------
----------------------------------|---------------------------------
---7-7--7-7------7-7---7-7--------|---7-7--7-7------7-7---7-7-------
---7-7--9-7------7-7---9-7--------|---7-7--9-7------7-7---9-7-------
---0-0--0-0------0-0---0-0--------|---0-0--0-0------0-0---0-0-------


E
----------------------------------|---------------------------------
----------------------------------|---------------------------------
----------------------------------|---------------------------------
---2-2--2-2------2-2---2-2--------|---2-2--2-2------2-2---2-2-------
---2-2--4-2------2-2---4-2--------|---2-2--4-2------2-2---4-2-------
---0-0--0-0------0-0---0-0--------|---0-0--0-0------0-0---0-0-------


B A
----------------------------------|----------------------------------
----------------------------------|----------------------------------
----------------------------------|----------------------------------
---9-9--9--9------9-9---9--9------|---7-7--7-7------7-7---7-7--------
---9-9--11-9------9-9---11-9------|---7-7--9-7------7-7---9-7--------
---x-x--x--x------x-x---x--x------|---0-0--0-0------0-0---0-0--------


E B
----------------------------------|---------------------------------
----------------------------------|---------------------------------
----------------------------------|---------------------------------
---2-2--2-2------2-2---2-2--------|---9-9--9--9------9-9---9--9-----
---2-2--4-2------2-2---4-2--------|---9-9--11-9------9-9---11-9-----
---0-0--0-0------0-0---0-0--------|---x-x--x--x------x-x---x--x-----



Comments:

01
05.18.2008
  WickedBeast

not bad man, reminds me of highway blues.

Guest access is read-only. To write comment, please login!



Copyright © 2004-2009 All-Guitar-Chords.com. All rights reserved.