new transposer      circle of 5ths    wap

F#/Gb Major Scale



012345678910111213141516171819202122






  Lefthanded scale finder   Patterns Chords Scales
 
Scale - Major
1,2,3,4,5,6,7

9-th pattern
Root note - F#/Gb

Guitar Tuning:


Tuning:

Vertical Patterns
Horizontal (4 notes per string)
Horizontal (3 notes per string)
Shifted v1
Shifted v2

|-----13-11--9-------------------------------------------------------
|----------------12-11--9--------------------------------------------
|---------------------------11-10--8---------------------------------
|--------------------------------------11--9--8-----------------------
|------------------------------------------------11--9--8-------------
|----------------------------------------------------------11--9------

|-------------------------------------------------------9-11-13------
|--------------------------------------------9-11-12-----------------
|---------------------------------8-10-11----------------------------
|-----------------------8--9-11---------------------------------------
|-------------8--9-11-------------------------------------------------
|------9-11-----------------------------------------------------------

Copyright © 2004-2017 All-Guitar-Chords.com. All rights reserved.