new transposer      circle of 5ths    wap

C Major Scale



012345678910111213141516171819202122






  Lefthanded scale finder   Patterns Chords Scales
 
Scale - Major
1,2,3,4,5,6,7

9-th pattern
Root note - C

Guitar Tuning:


Tuning:

Vertical Patterns
Horizontal (4 notes per string)
Horizontal (3 notes per string)
Shifted v1
Shifted v2

|-----19----------------------------------------------------------------------------------
|---------22-20-18----------------------------------------------------------------------
|---------------------21-19-17-16------------------------------------------------------
|-------------------------------------19-17-15-14--------------------------------------
|-----------------------------------------------------17-15-14-12----------------------
|---------------------------------------------------------------------15-13-12-10------

|----------------------------------------------------------------------------------19------
|----------------------------------------------------------------------18--20--22----------
|------------------------------------------------------16--17--19--21----------------------
|--------------------------------------14--15--17--19--------------------------------------
|----------------------12--14--15--17------------------------------------------------------
|------10--12--13--15----------------------------------------------------------------------

Copyright © 2004-2017 All-Guitar-Chords.com. All rights reserved.