new transposer      circle of 5ths    wap

E Pentatonic Minor Scale



012345678910111213141516171819202122






  Lefthanded scale finder   Patterns Chords Scales
 
Scale - Pentatonic Minor
1,b3,4,5,b7

8-th pattern
Root note - E

Guitar Tuning:


Tuning:

Vertical Patterns
Horizontal (4 notes per string)
Horizontal (3 notes per string)
Shifted v1
Shifted v2

|-----12-10--7------------------------------------
|----------------10--8-----------------------------
|------------------------9--7-----------------------
|------------------------------9--7-----------------
|-----------------------------------10--7----------
|------------------------------------------10------

|------------------------------------7-10-12------
|-----------------------------8-10-----------------
|-----------------------7--9------------------------
|-----------------7--9------------------------------
|----------7-10------------------------------------
|-----10-------------------------------------------

Copyright © 2004-2017 All-Guitar-Chords.com. All rights reserved.