new transposer      circle of 5ths    wap

C Mixolydian Scale



012345678910111213141516171819202122






  Lefthanded scale finder   Patterns Chords Scales
 
Scale - Mixolydian
1,2,3,4,5,6,b7

8-th pattern
Root note - C

Guitar Tuning:


Tuning:

Vertical Patterns
Horizontal (4 notes per string)
Horizontal (3 notes per string)
Shifted v1
Shifted v2

|-----12-10--8------------------------------------------------------
|----------------11-10--8-------------------------------------------
|---------------------------10--9--7---------------------------------
|-------------------------------------10--8--7-----------------------
|-----------------------------------------------10--8--7-------------
|---------------------------------------------------------10--8------

|------------------------------------------------------8-10-12------
|-------------------------------------------8-10-11-----------------
|---------------------------------7--9-10----------------------------
|-----------------------7--8-10--------------------------------------
|-------------7--8-10------------------------------------------------
|------8-10----------------------------------------------------------

Copyright © 2004-2009 All-Guitar-Chords.com. All rights reserved.