new transposer      circle of 5ths    wap

C Hirajoshi Scale



012345678910111213141516171819202122






  Lefthanded scale finder   Patterns Chords Scales
 
Scale - Hirajoshi
1,2,b3,5,b6

8-th pattern
Root note - C

Guitar Tuning:
Standard - E-A-D-G-B-E


Tuning:

Vertical Patterns
Horizontal (4 notes per string)
Horizontal (3 notes per string)
Shifted v1
Shifted v2

|-----11-10--8-----------------------------------------
|-----------------9--8-----------------------------------
|-----------------------8--7-----------------------------
|----------------------------10-------------------------
|--------------------------------11-10-----------------
|----------------------------------------11-10--8------

|-----------------------------------------8-10-11------
|-----------------------------------8--9-----------------
|-----------------------------7--8-----------------------
|------------------------10-----------------------------
|----------------10-11---------------------------------
|------8-10-11-----------------------------------------

Copyright © 2004-2017 All-Guitar-Chords.com. All rights reserved.