new transposer      circle of 5ths    wap

F#/Gb Major Scale



012345678910111213141516171819202122






  Lefthanded scale finder   Patterns Chords Scales
 
Scale - Major
1,2,3,4,5,6,7

7-th pattern
Root note - F#/Gb

Guitar Tuning:


Tuning:

Vertical Patterns
Horizontal (4 notes per string)
Horizontal (3 notes per string)
Shifted v1
Shifted v2

|-----11--9--7--6---------------------------------------------
|-------------------9--7--6------------------------------------
|----------------------------8--6------------------------------
|----------------------------------9--8--6---------------------
|-------------------------------------------9--8--6------------
|----------------------------------------------------9--7------

|---------------------------------------------6--7--9-11------
|------------------------------------6--7--9-------------------
|------------------------------6--8----------------------------
|---------------------6--8--9----------------------------------
|------------6--8--9-------------------------------------------
|------7--9----------------------------------------------------

Copyright © 2004-2017 All-Guitar-Chords.com. All rights reserved.