new transposer      circle of 5ths    wap

C Lydian Scale



012345678910111213141516171819202122






  Lefthanded scale finder   Patterns Chords Scales
 
Scale - Lydian
1,2,3,#4,5,6,7

7-th pattern
Root note - C

Guitar Tuning:


Tuning:

Vertical Patterns
Horizontal (4 notes per string)
Horizontal (3 notes per string)
Shifted v1
Shifted v2

|-----10--8--7----------------------------------------------------
|---------------10--8--7------------------------------------------
|--------------------------9--7------------------------------------
|-------------------------------10--9--7--------------------------
|-----------------------------------------10--9--7----------------
|---------------------------------------------------10--8--7------

|----------------------------------------------------7--8-10------
|------------------------------------------7--8-10----------------
|------------------------------------7--9--------------------------
|--------------------------7--9-10--------------------------------
|----------------7--9-10------------------------------------------
|------7--8-10----------------------------------------------------

Copyright © 2004-2009 All-Guitar-Chords.com. All rights reserved.