new transposer      circle of 5ths    wap

C Kumoi Scale



012345678910111213141516171819202122






  Lefthanded scale finder   Patterns Chords Scales
 
Scale - Kumoi
1,2,b3,5,6

7-th pattern
Root note - C

Guitar Tuning:


Tuning:

Vertical Patterns
Horizontal (4 notes per string)
Horizontal (3 notes per string)
Shifted v1
Shifted v2

|-----11-10--8----------------------------------------
|----------------10--8---------------------------------
|------------------------8--7---------------------------
|-----------------------------10--7--------------------
|------------------------------------10--6-------------
|-------------------------------------------10--8------

|----------------------------------------8-10-11------
|---------------------------------8-10-----------------
|---------------------------7--8------------------------
|--------------------7-10------------------------------
|-------------6-10-------------------------------------
|------8-10--------------------------------------------

Copyright © 2004-2009 All-Guitar-Chords.com. All rights reserved.