new transposer      circle of 5ths    wap

E Harmonic Minor Scale



012345678910111213141516171819202122






  Lefthanded scale finder   Patterns Chords Scales
 
Scale - Harmonic Minor
1,2,b3,4,5,b6,7

6-th pattern
Root note - E

Guitar Tuning:


Tuning:

Vertical Patterns
Horizontal (4 notes per string)
Horizontal (3 notes per string)
Shifted v1
Shifted v2

|------8--7--5---------------------------------------------
|---------------8--7--5------------------------------------
|------------------------8--5------------------------------
|------------------------------9--7--5---------------------
|---------------------------------------9--7--6------------
|------------------------------------------------8--7------

|---------------------------------------------5--7--8------
|------------------------------------5--7--8---------------
|------------------------------5--8------------------------
|---------------------5--7--9------------------------------
|------------6--7--9---------------------------------------
|------7--8------------------------------------------------

Copyright © 2004-2017 All-Guitar-Chords.com. All rights reserved.