new transposer      circle of 5ths    wap

D Major Scale



012345678910111213141516171819202122






  Lefthanded scale finder   Patterns Chords Scales
 
Scale - Major
1,2,3,4,5,6,7

6-th pattern
Root note - D

Guitar Tuning:


Tuning:

Vertical Patterns
Horizontal (4 notes per string)
Horizontal (3 notes per string)
Shifted v1
Shifted v2

|-----10--9--7--5---------------------------------------------
|-------------------8--7--5------------------------------------
|----------------------------7--6------------------------------
|----------------------------------9--7--5---------------------
|-------------------------------------------9--7--5------------
|----------------------------------------------------9--7------

|---------------------------------------------5--7--9-10------
|------------------------------------5--7--8-------------------
|------------------------------6--7----------------------------
|---------------------5--7--9----------------------------------
|------------5--7--9-------------------------------------------
|------7--9----------------------------------------------------

Copyright © 2004-2017 All-Guitar-Chords.com. All rights reserved.