new transposer      circle of 5ths    wap

C Major Scale



012345678910111213141516171819202122






  Lefthanded scale finder   Patterns Chords Scales
 
Scale - Major
1,2,3,4,5,6,7

6-th pattern
Root note - C

Guitar Tuning:


Tuning:

Vertical Patterns
Horizontal (4 notes per string)
Horizontal (3 notes per string)
Shifted v1
Shifted v2

|-----22-20-19-17-----------------------------------------------------------------------------------
|---------------------20-18-17-15-------------------------------------------------------------------
|-------------------------------------17-16-14-12---------------------------------------------------
|-----------------------------------------------------15-14-12-10-----------------------------------
|---------------------------------------------------------------------14-12-10--8--------------------
|------------------------------------------------------------------------------------12-10--8--7------

|-----------------------------------------------------------------------------------17--19--20--22------
|-------------------------------------------------------------------15--17--18--20----------------------
|---------------------------------------------------12--14--16--17--------------------------------------
|-----------------------------------10--12--14--15------------------------------------------------------
|--------------------8--10--12--14----------------------------------------------------------------------
|------7--8--10--12-------------------------------------------------------------------------------------

Copyright © 2004-2017 All-Guitar-Chords.com. All rights reserved.