new transposer      circle of 5ths    wap

E Spanish Gypsy Scale



012345678910111213141516171819202122






  Lefthanded scale finder   Patterns Chords Scales
 
Scale - Spanish Gypsy
1,b2,3,4,5,b6,b7

5-th pattern
Root note - E

Guitar Tuning:


Tuning:

Vertical Patterns
Horizontal (4 notes per string)
Horizontal (3 notes per string)
Shifted v1
Shifted v2

|------8--7--5--4---------------------------------------------
|------------------6--5---------------------------------------
|------------------------7--5--4------------------------------
|---------------------------------7--6------------------------
|---------------------------------------8--7--5---------------
|------------------------------------------------8--7--5------

|---------------------------------------------4--5--7--8------
|---------------------------------------5--6------------------
|------------------------------4--5--7------------------------
|------------------------6--7---------------------------------
|---------------5--7--8---------------------------------------
|------5--7--8------------------------------------------------

Copyright © 2004-2009 All-Guitar-Chords.com. All rights reserved.