new transposer      circle of 5ths    wap

C Major Scale



012345678910111213141516171819202122






  Lefthanded scale finder   Patterns Chords Scales
 
Scale - Major
1,2,3,4,5,6,7

5-th pattern
Root note - C

Guitar Tuning:


Tuning:

Vertical Patterns
Horizontal (4 notes per string)
Horizontal (3 notes per string)
Shifted v1
Shifted v2

|-----20-19-17-15--------------------------------------------------------------------------------
|---------------------18-17-15-13----------------------------------------------------------------
|-------------------------------------16-14-12-10------------------------------------------------
|-----------------------------------------------------14-12-10--9---------------------------------
|--------------------------------------------------------------------12-10--8--7-------------------
|----------------------------------------------------------------------------------10--8--7--5------

|--------------------------------------------------------------------------------15--17--19--20------
|----------------------------------------------------------------13--15--17--18----------------------
|------------------------------------------------10--12--14--16--------------------------------------
|---------------------------------9--10--12--14------------------------------------------------------
|-------------------7--8--10--12---------------------------------------------------------------------
|------5--7--8--10-----------------------------------------------------------------------------------

Copyright © 2004-2017 All-Guitar-Chords.com. All rights reserved.