new transposer      circle of 5ths    wap

G Mixolydian Scale



012345678910111213141516171819202122






  Lefthanded scale finder   Patterns Chords Scales
 
Scale - Mixolydian
1,2,3,4,5,6,b7

4-th pattern
Root note - G

Guitar Tuning:


Tuning:

Vertical Patterns
Horizontal (4 notes per string)
Horizontal (3 notes per string)
Shifted v1
Shifted v2

|------8--7--5--3---------------------------------------------
|------------------6--5--3------------------------------------
|---------------------------5--4------------------------------
|---------------------------------7--5--3---------------------
|------------------------------------------7--5--3------------
|---------------------------------------------------7--5------

|---------------------------------------------3--5--7--8------
|------------------------------------3--5--6------------------
|------------------------------4--5---------------------------
|---------------------3--5--7---------------------------------
|------------3--5--7------------------------------------------
|------5--7---------------------------------------------------

Copyright © 2004-2009 All-Guitar-Chords.com. All rights reserved.