new transposer      circle of 5ths    wap

C Kumoi Scale



012345678910111213141516171819202122






  Lefthanded scale finder   Patterns Chords Scales
 
Scale - Kumoi
1,2,b3,5,6

4-th pattern
Root note - C

Guitar Tuning:


Tuning:

Vertical Patterns
Horizontal (4 notes per string)
Horizontal (3 notes per string)
Shifted v1
Shifted v2

|------8--5--3---------------------------------
|---------------4--3---------------------------
|---------------------5------------------------
|------------------------7--5------------------
|------------------------------6--5--3---------
|---------------------------------------5------

|---------------------------------3--5--8------
|---------------------------3--4---------------
|------------------------5---------------------
|------------------5--7------------------------
|---------3--5--6------------------------------
|------5---------------------------------------

Copyright © 2004-2009 All-Guitar-Chords.com. All rights reserved.