new transposer      circle of 5ths    wap

F#/Gb Major Scale



012345678910111213141516171819202122






  Lefthanded scale finder   Patterns Chords Scales
 
Scale - Major
1,2,3,4,5,6,7

3-th pattern
Root note - F#/Gb

Guitar Tuning:


Tuning:

Vertical Patterns
Horizontal (4 notes per string)
Horizontal (3 notes per string)
Shifted v1
Shifted v2

|------7--6--4--2---------------------------------------------
|------------------6--4--2------------------------------------
|---------------------------4--3------------------------------
|---------------------------------6--4--3---------------------
|------------------------------------------6--4--2------------
|---------------------------------------------------6--4------

|---------------------------------------------2--4--6--7------
|------------------------------------2--4--6------------------
|------------------------------3--4---------------------------
|---------------------3--4--6---------------------------------
|------------2--4--6------------------------------------------
|------4--6---------------------------------------------------

Copyright © 2004-2017 All-Guitar-Chords.com. All rights reserved.